ISO-10303-21;
HEADER;
FILE_DESCRIPTION (( 'STEP AP203' ),
    '1' );
FILE_NAME ('RUBBER PLUG.STEP',
    '2014-02-27T10:05:38',
    ( '' ),
    ( '' ),
    'SwSTEP 2.0',
    'SolidWorks 2013',
    '' );
FILE_SCHEMA (( 'CONFIG_CONTROL_DESIGN' ));
ENDSEC;

DATA;
#1 = CC_DESIGN_PERSON_AND_ORGANIZATION_ASSIGNMENT ( #232, #17, ( #223 ) ) ;
#2 = PERSON_AND_ORGANIZATION ( #273, #102 ) ;
#3 = DIRECTION ( 'NONE',  ( 0.0000000000000000000, 0.0000000000000000000, -1.000000000000000000 ) ) ;
#4 = DIRECTION ( 'NONE',  ( -0.0000000000000000000, -1.000000000000000000, -0.0000000000000000000 ) ) ;
#5 = CIRCLE ( 'NONE', #231, 18.49999999999999600 ) ;
#6 = LOCAL_TIME ( 11, 5, 38.00000000000000000, #238 ) ;
#7 = DIRECTION ( 'NONE',  ( 0.0000000000000000000, 0.0000000000000000000, -1.000000000000000000 ) ) ;
#8 = DIRECTION ( 'NONE',  ( -0.0000000000000000000, -1.000000000000000000, -0.0000000000000000000 ) ) ;
#9 = DIRECTION ( 'NONE',  ( 0.0000000000000000000, 0.0000000000000000000, -1.000000000000000000 ) ) ;
#10 = AXIS2_PLACEMENT_3D ( 'NONE', #197, #76, #222 ) ;
#11 = DIRECTION ( 'NONE',  ( 0.0000000000000000000, 0.0000000000000000000, -1.000000000000000000 ) ) ;
#12 = DIRECTION ( 'NONE',  ( 0.0000000000000000000, 0.0000000000000000000, 1.000000000000000000 ) ) ;
#13 = DIRECTION ( 'NONE',  ( -0.0000000000000000000, -1.000000000000000000, -0.0000000000000000000 ) ) ;
#14 =( GEOMETRIC_REPRESENTATION_CONTEXT ( 3 ) GLOBAL_UNCERTAINTY_ASSIGNED_CONTEXT ( ( #188 ) ) GLOBAL_UNIT_ASSIGNED_CONTEXT ( ( #79, #226, #100 ) ) REPRESENTATION_CONTEXT ( 'NONE', 'WORKASPACE' ) );
#15 = CYLINDRICAL_SURFACE ( 'NONE', #212, 7.599999999999999600 ) ;
#16 = CARTESIAN_POINT ( 'NONE',  ( 0.0000000000000000000, 0.0000000000000000000, 0.0000000000000000000 ) ) ;
#17 = PERSON_AND_ORGANIZATION_ROLE ( 'creator' ) ;
#18 = CIRCLE ( 'NONE', #28, 49.99999999999999300 ) ;
#19 = ADVANCED_FACE ( 'NONE', ( #78 ), #15, .T. ) ;
#20 = CC_DESIGN_PERSON_AND_ORGANIZATION_ASSIGNMENT ( #34, #181, ( #214 ) ) ;
#21 = VERTEX_POINT ( 'NONE', #215 ) ;
#22 = ADVANCED_FACE ( 'NONE', ( #71 ), #113, .T. ) ;
#23 = EDGE_LOOP ( 'NONE', ( #160, #36 ) ) ;
#24 = CALENDAR_DATE ( 2014, 27, 2 ) ;
#25 = AXIS2_PLACEMENT_3D ( 'NONE', #266, #132, #11 ) ;
#26 = COORDINATED_UNIVERSAL_TIME_OFFSET ( 1, 0, .AHEAD. ) ;
#27 = CARTESIAN_POINT ( 'NONE',  ( 0.0000000000000000000, 0.0000000000000000000, 0.0000000000000000000 ) ) ;
#28 = AXIS2_PLACEMENT_3D ( 'NONE', #267, #133, #12 ) ;
#29 = CARTESIAN_POINT ( 'NONE',  ( 0.0000000000000000000, 0.0000000000000000000, 0.0000000000000000000 ) ) ;
#30 = CARTESIAN_POINT ( 'NONE',  ( 0.0000000000000000000, 16.50000000000000700, 0.0000000000000000000 ) ) ;
#31 = LINE ( 'NONE', #134, #251 ) ;
#32 = DATE_AND_TIME ( #85, #138 ) ;
#33 = CARTESIAN_POINT ( 'NONE',  ( 0.0000000000000000000, 15.00000000000000000, -7.599999999999999600 ) ) ;
#34 = PERSON_AND_ORGANIZATION ( #273, #102 ) ;
#35 = APPROVAL ( #205, 'UNSPECIFIED' ) ;
#36 = ORIENTED_EDGE ( 'NONE', *, *, #240, .T. ) ;
#37 = DIRECTION ( 'NONE',  ( -0.0000000000000000000, -1.000000000000000000, -0.0000000000000000000 ) ) ;
#38 = DIRECTION ( 'NONE',  ( 1.000000000000000000, 0.0000000000000000000, 0.0000000000000000000 ) ) ;
#39 = SECURITY_CLASSIFICATION_LEVEL ( 'unclassified' ) ;
#40 = PERSON_AND_ORGANIZATION ( #273, #102 ) ;
#41 = AXIS2_PLACEMENT_3D ( 'NONE', #175, #55, #199 ) ;
#42 = ORIENTED_EDGE ( 'NONE', *, *, #229, .T. ) ;
#43 = AXIS2_PLACEMENT_3D ( 'NONE', #196, #75, #220 ) ;
#44 = ORIENTED_EDGE ( 'NONE', *, *, #190, .T. ) ;
#45 = EDGE_LOOP ( 'NONE', ( #274, #144, #268, #114 ) ) ;
#46 = CC_DESIGN_DATE_AND_TIME_ASSIGNMENT ( #121, #61, ( #214 ) ) ;
#47 = DIRECTION ( 'NONE',  ( 0.0000000000000000000, 0.0000000000000000000, -1.000000000000000000 ) ) ;
#48 = CIRCLE ( 'NONE', #275, 18.50000000000000000 ) ;
#49 = ORIENTED_EDGE ( 'NONE', *, *, #99, .T. ) ;
#50 = CARTESIAN_POINT ( 'NONE',  ( 2.265596578422603000E-015, 0.0000000000000000000, 18.49999999999999600 ) ) ;
#51 = CARTESIAN_POINT ( 'NONE',  ( 0.0000000000000000000, 16.50000000000000700, -18.49999999999999600 ) ) ;
#52 = AXIS2_PLACEMENT_3D ( 'NONE', #53, #224, #97 ) ;
#53 = CARTESIAN_POINT ( 'NONE',  ( 0.0000000000000000000, -30.48072359709805200, 0.0000000000000000000 ) ) ;
#54 = ORIENTED_EDGE ( 'NONE', *, *, #179, .T. ) ;
#55 = DIRECTION ( 'NONE',  ( 1.000000000000000000, 0.0000000000000000000, -1.224646799147353200E-016 ) ) ;
#56 = CARTESIAN_POINT ( 'NONE',  ( 0.0000000000000000000, 0.0000000000000000000, 0.0000000000000000000 ) ) ;
#57 = CIRCLE ( 'NONE', #43, 7.599999999999999600 ) ;
#58 = PERSON_AND_ORGANIZATION_ROLE ( 'design_owner' ) ;
#59 = ORIENTED_EDGE ( 'NONE', *, *, #179, .F. ) ;
#60 = APPROVAL_PERSON_ORGANIZATION ( #89, #35, #81 ) ;
#61 = DATE_TIME_ROLE ( 'classification_date' ) ;
#62 = CC_DESIGN_APPROVAL ( #35, ( #214 ) ) ;
#63 = LINE ( 'NONE', #150, #106 ) ;
#64 = CALENDAR_DATE ( 2014, 27, 2 ) ;
#65 = ADVANCED_FACE ( 'NONE', ( #234 ), #170, .T. ) ;
#66 = ORIENTED_EDGE ( 'NONE', *, *, #147, .F. ) ;
#67 = AXIS2_PLACEMENT_3D ( 'NONE', #56, #201, #77 ) ;
#68 = APPROVAL_DATE_TIME ( #277, #35 ) ;
#69 = AXIS2_PLACEMENT_3D ( 'NONE', #239, #4, #189 ) ;
#70 = DIRECTION ( 'NONE',  ( -0.0000000000000000000, -1.000000000000000000, -0.0000000000000000000 ) ) ;
#71 = FACE_OUTER_BOUND ( 'NONE', #213, .T. ) ;
#72 = CARTESIAN_POINT ( 'NONE',  ( 9.307315673519885500E-016, 15.00000000000000000, 7.599999999999999600 ) ) ;
#73 = DIRECTION ( 'NONE',  ( -0.0000000000000000000, -1.000000000000000000, -0.0000000000000000000 ) ) ;
#74 = FACE_OUTER_BOUND ( 'NONE', #152, .T. ) ;
#75 = DIRECTION ( 'NONE',  ( -0.0000000000000000000, -1.000000000000000000, -0.0000000000000000000 ) ) ;
#76 = DIRECTION ( 'NONE',  ( -0.0000000000000000000, -1.000000000000000000, -0.0000000000000000000 ) ) ;
#77 = DIRECTION ( 'NONE',  ( 0.0000000000000000000, 0.0000000000000000000, -1.000000000000000000 ) ) ;
#78 = FACE_OUTER_BOUND ( 'NONE', #45, .T. ) ;
#79 =( LENGTH_UNIT ( ) NAMED_UNIT ( * ) SI_UNIT ( .MILLI., .METRE. ) );
#80 = APPLICATION_PROTOCOL_DEFINITION ( 'international standard', 'config_control_design', 1994, #202 ) ;
#81 = APPROVAL_ROLE ( '' ) ;
#82 = LOCAL_TIME ( 11, 5, 38.00000000000000000, #130 ) ;
#83 = EDGE_CURVE ( 'NONE', #221, #125, #243, .T. ) ;
#84 = TOROIDAL_SURFACE ( 'NONE', #52, 1.388261038308426000, 49.99999999999999300 ) ;
#85 = CALENDAR_DATE ( 2014, 27, 2 ) ;
#86 = ADVANCED_FACE ( 'NONE', ( #119 ), #112, .T. ) ;
#87 = ORIENTED_EDGE ( 'NONE', *, *, #104, .T. ) ;
#88 = PRODUCT_RELATED_PRODUCT_CATEGORY ( 'detail', '', ( #203 ) ) ;
#89 = PERSON_AND_ORGANIZATION ( #273, #102 ) ;
#90 = FACE_OUTER_BOUND ( 'NONE', #281, .T. ) ;
#91 = ORIENTED_EDGE ( 'NONE', *, *, #165, .T. ) ;
#92 = PERSON_AND_ORGANIZATION ( #273, #102 ) ;
#93 = AXIS2_PLACEMENT_3D ( 'NONE', #118, #98, #247 ) ;
#94 = CARTESIAN_POINT ( 'NONE',  ( 9.307315673519885500E-016, 0.0000000000000000000, 7.599999999999999600 ) ) ;
#95 = VERTEX_POINT ( 'NONE', #171 ) ;
#96 = MANIFOLD_SOLID_BREP ( 'Revolve1', #263 ) ;
#97 = DIRECTION ( 'NONE',  ( 0.0000000000000000000, 0.0000000000000000000, -1.000000000000000000 ) ) ;
#98 = DIRECTION ( 'NONE',  ( -0.0000000000000000000, -1.000000000000000000, -0.0000000000000000000 ) ) ;
#99 = EDGE_CURVE ( 'NONE', #173, #140, #5, .T. ) ;
#100 =( NAMED_UNIT ( * ) SI_UNIT ( $, .STERADIAN. ) SOLID_ANGLE_UNIT ( ) );
#101 = APPROVAL_ROLE ( '' ) ;
#102 = ORGANIZATION ( 'UNSPECIFIED', 'UNSPECIFIED', '' ) ;
#103 = PRODUCT_DEFINITION_SHAPE ( 'NONE', 'NONE',  #187 ) ;
#104 = EDGE_CURVE ( 'NONE', #173, #95, #63, .T. ) ;
#105 = ORIENTED_EDGE ( 'NONE', *, *, #165, .F. ) ;
#106 = VECTOR ( 'NONE', #169, 1000.000000000000000 ) ;
#107 = EDGE_LOOP ( 'NONE', ( #110, #91, #42, #208 ) ) ;
#108 = ORIENTED_EDGE ( 'NONE', *, *, #190, .F. ) ;
#109 = AXIS2_PLACEMENT_3D ( 'NONE', #156, #37, #270 ) ;
#110 = ORIENTED_EDGE ( 'NONE', *, *, #139, .F. ) ;
#111 = LOCAL_TIME ( 11, 5, 38.00000000000000000, #26 ) ;
#112 = PLANE ( 'NONE',  #259 ) ;
#113 = CYLINDRICAL_SURFACE ( 'NONE', #195, 18.49999999999999600 ) ;
#114 = ORIENTED_EDGE ( 'NONE', *, *, #229, .F. ) ;
#115 = DIRECTION ( 'NONE',  ( 0.0000000000000000000, 0.0000000000000000000, -1.000000000000000000 ) ) ;
#116 = CARTESIAN_POINT ( 'NONE',  ( 0.0000000000000000000, 0.0000000000000000000, -7.599999999999999600 ) ) ;
#117 = CARTESIAN_POINT ( 'NONE',  ( 2.265596578422603400E-015, 15.00000000000000000, 18.50000000000000000 ) ) ;
#118 = CARTESIAN_POINT ( 'NONE',  ( 0.0000000000000000000, 0.0000000000000000000, 0.0000000000000000000 ) ) ;
#119 = FACE_OUTER_BOUND ( 'NONE', #23, .T. ) ;
#120 = APPLICATION_PROTOCOL_DEFINITION ( 'international standard', 'config_control_design', 1994, #136 ) ;
#121 = DATE_AND_TIME ( #64, #6 ) ;
#122 = CIRCLE ( 'NONE', #25, 7.599999999999999600 ) ;
#123 = DATE_TIME_ROLE ( 'creation_date' ) ;
#124 = ORIENTED_EDGE ( 'NONE', *, *, #209, .T. ) ;
#125 = VERTEX_POINT ( 'NONE', #72 ) ;
#126 = EDGE_CURVE ( 'NONE', #95, #185, #159, .T. ) ;
#127 = CALENDAR_DATE ( 2014, 27, 2 ) ;
#128 = DIRECTION ( 'NONE',  ( 0.0000000000000000000, -1.000000000000000000, -0.0000000000000000000 ) ) ;
#129 = CARTESIAN_POINT ( 'NONE',  ( 0.0000000000000000000, 15.00000000000000000, 0.0000000000000000000 ) ) ;
#130 = COORDINATED_UNIVERSAL_TIME_OFFSET ( 1, 0, .AHEAD. ) ;
#131 = DIRECTION ( 'NONE',  ( -0.0000000000000000000, -1.000000000000000000, -0.0000000000000000000 ) ) ;
#132 = DIRECTION ( 'NONE',  ( -0.0000000000000000000, -1.000000000000000000, -0.0000000000000000000 ) ) ;
#133 = DIRECTION ( 'NONE',  ( -1.000000000000000000, 0.0000000000000000000, 0.0000000000000000000 ) ) ;
#134 = CARTESIAN_POINT ( 'NONE',  ( 0.0000000000000000000, 0.0000000000000000000, -7.599999999999999600 ) ) ;
#135 = PLANE ( 'NONE',  #278 ) ;
#136 = APPLICATION_CONTEXT ( 'configuration controlled 3d designs of mechanical parts and assemblies' ) ;
#137 = APPROVAL_ROLE ( '' ) ;
#138 = LOCAL_TIME ( 11, 5, 38.00000000000000000, #194 ) ;
#139 = EDGE_CURVE ( 'NONE', #125, #211, #227, .T. ) ;
#140 = VERTEX_POINT ( 'NONE', #191 ) ;
#141 = DATE_AND_TIME ( #225, #111 ) ;
#142 = FACE_OUTER_BOUND ( 'NONE', #161, .T. ) ;
#143 = ORIENTED_EDGE ( 'NONE', *, *, #147, .T. ) ;
#144 = ORIENTED_EDGE ( 'NONE', *, *, #139, .T. ) ;
#145 = COORDINATED_UNIVERSAL_TIME_OFFSET ( 1, 0, .AHEAD. ) ;
#146 = DIRECTION ( 'NONE',  ( -0.0000000000000000000, -1.000000000000000000, -0.0000000000000000000 ) ) ;
#147 = EDGE_CURVE ( 'NONE', #140, #185, #217, .T. ) ;
#148 = APPROVAL_DATE_TIME ( #141, #254 ) ;
#149 = CARTESIAN_POINT ( 'NONE',  ( 0.0000000000000000000, 0.0000000000000000000, 0.0000000000000000000 ) ) ;
#150 = CARTESIAN_POINT ( 'NONE',  ( 0.0000000000000000000, 0.0000000000000000000, -18.49999999999999600 ) ) ;
#151 = CYLINDRICAL_SURFACE ( 'NONE', #93, 18.49999999999999600 ) ;
#152 = EDGE_LOOP ( 'NONE', ( #108, #124, #276 ) ) ;
#153 = DIRECTION ( 'NONE',  ( 0.0000000000000000000, 0.0000000000000000000, -1.000000000000000000 ) ) ;
#154 = EDGE_CURVE ( 'NONE', #185, #95, #48, .T. ) ;
#155 = EDGE_LOOP ( 'NONE', ( #218, #105 ) ) ;
#156 = CARTESIAN_POINT ( 'NONE',  ( 0.0000000000000000000, 0.0000000000000000000, 0.0000000000000000000 ) ) ;
#157 = CARTESIAN_POINT ( 'NONE',  ( 7.599999999999999600, 15.00000000000000000, 0.0000000000000000000 ) ) ;
#158 = DIRECTION ( 'NONE',  ( 0.0000000000000000000, 0.0000000000000000000, 1.000000000000000000 ) ) ;
#159 = CIRCLE ( 'NONE', #245, 18.50000000000000000 ) ;
#160 = ORIENTED_EDGE ( 'NONE', *, *, #168, .T. ) ;
#161 = EDGE_LOOP ( 'NONE', ( #66, #54, #87, #237 ) ) ;
#162 = PERSON_AND_ORGANIZATION_ROLE ( 'design_supplier' ) ;
#163 = ORIENTED_EDGE ( 'NONE', *, *, #126, .F. ) ;
#164 = AXIS2_PLACEMENT_3D ( 'NONE', #16, #158, #38 ) ;
#165 = EDGE_CURVE ( 'NONE', #125, #221, #57, .T. ) ;
#166 = VECTOR ( 'NONE', #73, 1000.000000000000000 ) ;
#167 = ORIENTED_EDGE ( 'NONE', *, *, #209, .F. ) ;
#168 = EDGE_CURVE ( 'NONE', #176, #211, #122, .T. ) ;
#169 = DIRECTION ( 'NONE',  ( -0.0000000000000000000, -1.000000000000000000, -0.0000000000000000000 ) ) ;
#170 = TOROIDAL_SURFACE ( 'NONE', #69, 1.388261038308426000, 49.99999999999999300 ) ;
#171 = CARTESIAN_POINT ( 'NONE',  ( 0.0000000000000000000, 15.00000000000000000, -18.50000000000000000 ) ) ;
#172 = DIRECTION ( 'NONE',  ( -0.0000000000000000000, -1.000000000000000000, -0.0000000000000000000 ) ) ;
#173 = VERTEX_POINT ( 'NONE', #51 ) ;
#174 = APPROVAL ( #230, 'UNSPECIFIED' ) ;
#175 = CARTESIAN_POINT ( 'NONE',  ( 1.700129436945394900E-016, -30.48072359709805200, 1.388261038308426000 ) ) ;
#176 = VERTEX_POINT ( 'NONE', #116 ) ;
#177 = DIRECTION ( 'NONE',  ( 0.0000000000000000000, 0.0000000000000000000, -1.000000000000000000 ) ) ;
#178 = LOCAL_TIME ( 11, 5, 38.00000000000000000, #145 ) ;
#179 = EDGE_CURVE ( 'NONE', #140, #173, #271, .T. ) ;
#180 = MECHANICAL_CONTEXT ( 'NONE', #136, 'mechanical' ) ;
#181 = PERSON_AND_ORGANIZATION_ROLE ( 'classification_officer' ) ;
#182 = AXIS2_PLACEMENT_3D ( 'NONE', #216, #241, #115 ) ;
#183 = PERSON_AND_ORGANIZATION ( #273, #102 ) ;
#184 = CIRCLE ( 'NONE', #41, 49.99999999999999300 ) ;
#185 = VERTEX_POINT ( 'NONE', #117 ) ;
#186 = PERSON_AND_ORGANIZATION ( #273, #102 ) ;
#187 = PRODUCT_DEFINITION ( 'UNKNOWN', '', #223, #219 ) ;
#188 = UNCERTAINTY_MEASURE_WITH_UNIT (LENGTH_MEASURE( 1.000000000000000100E-005 ), #79, 'distance_accuracy_value', 'NONE');
#189 = DIRECTION ( 'NONE',  ( 0.0000000000000000000, 0.0000000000000000000, -1.000000000000000000 ) ) ;
#190 = EDGE_CURVE ( 'NONE', #21, #173, #18, .T. ) ;
#191 = CARTESIAN_POINT ( 'NONE',  ( 2.265596578422603000E-015, 16.50000000000000700, 18.49999999999999600 ) ) ;
#192 = DIRECTION ( 'NONE',  ( 0.0000000000000000000, 0.0000000000000000000, -1.000000000000000000 ) ) ;
#193 = CIRCLE ( 'NONE', #67, 7.599999999999999600 ) ;
#194 = COORDINATED_UNIVERSAL_TIME_OFFSET ( 1, 0, .AHEAD. ) ;
#195 = AXIS2_PLACEMENT_3D ( 'NONE', #29, #70, #47 ) ;
#196 = CARTESIAN_POINT ( 'NONE',  ( 0.0000000000000000000, 15.00000000000000000, 0.0000000000000000000 ) ) ;
#197 = CARTESIAN_POINT ( 'NONE',  ( 0.0000000000000000000, 16.50000000000000700, 0.0000000000000000000 ) ) ;
#198 = APPROVAL_PERSON_ORGANIZATION ( #183, #254, #137 ) ;
#199 = DIRECTION ( 'NONE',  ( -1.224646799147353200E-016, 0.0000000000000000000, -1.000000000000000000 ) ) ;
#200 = CC_DESIGN_SECURITY_CLASSIFICATION ( #214, ( #223 ) ) ;
#201 = DIRECTION ( 'NONE',  ( -0.0000000000000000000, -1.000000000000000000, -0.0000000000000000000 ) ) ;
#202 = APPLICATION_CONTEXT ( 'configuration controlled 3d designs of mechanical parts and assemblies' ) ;
#203 = PRODUCT ( 'RUBBER PLUG', 'RUBBER PLUG', '', ( #180 ) ) ;
#204 = FACE_OUTER_BOUND ( 'NONE', #107, .T. ) ;
#205 = APPROVAL_STATUS ( 'not_yet_approved' ) ;
#206 = ORIENTED_EDGE ( 'NONE', *, *, #126, .T. ) ;
#207 = CC_DESIGN_PERSON_AND_ORGANIZATION_ASSIGNMENT ( #186, #250, ( #187 ) ) ;
#208 = ORIENTED_EDGE ( 'NONE', *, *, #240, .F. ) ;
#209 = EDGE_CURVE ( 'NONE', #21, #140, #184, .T. ) ;
#210 = FACE_BOUND ( 'NONE', #155, .T. ) ;
#211 = VERTEX_POINT ( 'NONE', #94 ) ;
#212 = AXIS2_PLACEMENT_3D ( 'NONE', #27, #146, #3 ) ;
#213 = EDGE_LOOP ( 'NONE', ( #49, #143, #163, #260 ) ) ;
#214 = SECURITY_CLASSIFICATION ( '', '', #39 ) ;
#215 = CARTESIAN_POINT ( 'NONE',  ( 0.0000000000000000000, 19.50000000000000000, 0.0000000000000000000 ) ) ;
#216 = CARTESIAN_POINT ( 'NONE',  ( 0.0000000000000000000, 15.00000000000000000, 0.0000000000000000000 ) ) ;
#217 = LINE ( 'NONE', #50, #166 ) ;
#218 = ORIENTED_EDGE ( 'NONE', *, *, #83, .F. ) ;
#219 = DESIGN_CONTEXT ( 'detailed design', #202, 'design' ) ;
#220 = DIRECTION ( 'NONE',  ( 0.0000000000000000000, 0.0000000000000000000, -1.000000000000000000 ) ) ;
#221 = VERTEX_POINT ( 'NONE', #33 ) ;
#222 = DIRECTION ( 'NONE',  ( 0.0000000000000000000, 0.0000000000000000000, -1.000000000000000000 ) ) ;
#223 = PRODUCT_DEFINITION_FORMATION_WITH_SPECIFIED_SOURCE ( 'ANY', '', #203, .NOT_KNOWN. ) ;
#224 = DIRECTION ( 'NONE',  ( -0.0000000000000000000, -1.000000000000000000, -0.0000000000000000000 ) ) ;
#225 = CALENDAR_DATE ( 2014, 27, 2 ) ;
#226 =( NAMED_UNIT ( * ) PLANE_ANGLE_UNIT ( ) SI_UNIT ( $, .RADIAN. ) );
#227 = LINE ( 'NONE', #264, #280 ) ;
#228 = ADVANCED_FACE ( 'NONE', ( #74 ), #84, .T. ) ;
#229 = EDGE_CURVE ( 'NONE', #221, #176, #31, .T. ) ;
#230 = APPROVAL_STATUS ( 'not_yet_approved' ) ;
#231 = AXIS2_PLACEMENT_3D ( 'NONE', #30, #172, #192 ) ;
#232 = PERSON_AND_ORGANIZATION ( #273, #102 ) ;
#233 = CC_DESIGN_APPROVAL ( #254, ( #223 ) ) ;
#234 = FACE_OUTER_BOUND ( 'NONE', #252, .T. ) ;
#235 = ORIENTED_EDGE ( 'NONE', *, *, #154, .T. ) ;
#236 = CC_DESIGN_DATE_AND_TIME_ASSIGNMENT ( #244, #123, ( #187 ) ) ;
#237 = ORIENTED_EDGE ( 'NONE', *, *, #154, .F. ) ;
#238 = COORDINATED_UNIVERSAL_TIME_OFFSET ( 1, 0, .AHEAD. ) ;
#239 = CARTESIAN_POINT ( 'NONE',  ( 0.0000000000000000000, -30.48072359709805200, 0.0000000000000000000 ) ) ;
#240 = EDGE_CURVE ( 'NONE', #211, #176, #193, .T. ) ;
#241 = DIRECTION ( 'NONE',  ( -0.0000000000000000000, -1.000000000000000000, -0.0000000000000000000 ) ) ;
#242 = DIRECTION ( 'NONE',  ( -0.0000000000000000000, -1.000000000000000000, -0.0000000000000000000 ) ) ;
#243 = CIRCLE ( 'NONE', #182, 7.599999999999999600 ) ;
#244 = DATE_AND_TIME ( #24, #82 ) ;
#245 = AXIS2_PLACEMENT_3D ( 'NONE', #129, #8, #153 ) ;
#246 = ADVANCED_BREP_SHAPE_REPRESENTATION ( 'RUBBER PLUG', ( #96, #164 ), #14 ) ;
#247 = DIRECTION ( 'NONE',  ( 0.0000000000000000000, 0.0000000000000000000, -1.000000000000000000 ) ) ;
#248 = CC_DESIGN_APPROVAL ( #174, ( #187 ) ) ;
#249 = DIRECTION ( 'NONE',  ( 0.0000000000000000000, -1.000000000000000000, -0.0000000000000000000 ) ) ;
#250 = PERSON_AND_ORGANIZATION_ROLE ( 'creator' ) ;
#251 = VECTOR ( 'NONE', #13, 1000.000000000000000 ) ;
#252 = EDGE_LOOP ( 'NONE', ( #167, #44, #59 ) ) ;
#253 = APPROVAL_DATE_TIME ( #32, #174 ) ;
#254 = APPROVAL ( #272, 'UNSPECIFIED' ) ;
#255 = ADVANCED_FACE ( 'NONE', ( #204 ), #256, .T. ) ;
#256 = CYLINDRICAL_SURFACE ( 'NONE', #109, 7.599999999999999600 ) ;
#257 = APPROVAL_PERSON_ORGANIZATION ( #40, #174, #101 ) ;
#258 = ADVANCED_FACE ( 'NONE', ( #142 ), #151, .T. ) ;
#259 = AXIS2_PLACEMENT_3D ( 'NONE', #149, #128, #7 ) ;
#260 = ORIENTED_EDGE ( 'NONE', *, *, #104, .F. ) ;
#261 = CC_DESIGN_PERSON_AND_ORGANIZATION_ASSIGNMENT ( #92, #58, ( #203 ) ) ;
#262 = SHAPE_DEFINITION_REPRESENTATION ( #103, #246 ) ;
#263 = CLOSED_SHELL ( 'NONE', ( #228, #22, #19, #86, #255, #279, #258, #65 ) ) ;
#264 = CARTESIAN_POINT ( 'NONE',  ( 9.307315673519885500E-016, 0.0000000000000000000, 7.599999999999999600 ) ) ;
#265 = CARTESIAN_POINT ( 'NONE',  ( 0.0000000000000000000, 15.00000000000000000, 0.0000000000000000000 ) ) ;
#266 = CARTESIAN_POINT ( 'NONE',  ( 0.0000000000000000000, 0.0000000000000000000, 0.0000000000000000000 ) ) ;
#267 = CARTESIAN_POINT ( 'NONE',  ( 0.0000000000000000000, -30.48072359709805200, -1.388261038308426000 ) ) ;
#268 = ORIENTED_EDGE ( 'NONE', *, *, #168, .F. ) ;
#269 = CC_DESIGN_PERSON_AND_ORGANIZATION_ASSIGNMENT ( #2, #162, ( #223 ) ) ;
#270 = DIRECTION ( 'NONE',  ( 0.0000000000000000000, 0.0000000000000000000, -1.000000000000000000 ) ) ;
#271 = CIRCLE ( 'NONE', #10, 18.49999999999999600 ) ;
#272 = APPROVAL_STATUS ( 'not_yet_approved' ) ;
#273 = PERSON ( 'UNSPECIFIED', 'UNSPECIFIED', 'UNSPECIFIED', ('UNSPECIFIED'), ('UNSPECIFIED'), ('UNSPECIFIED') ) ;
#274 = ORIENTED_EDGE ( 'NONE', *, *, #83, .T. ) ;
#275 = AXIS2_PLACEMENT_3D ( 'NONE', #265, #131, #9 ) ;
#276 = ORIENTED_EDGE ( 'NONE', *, *, #99, .F. ) ;
#277 = DATE_AND_TIME ( #127, #178 ) ;
#278 = AXIS2_PLACEMENT_3D ( 'NONE', #157, #249, #177 ) ;
#279 = ADVANCED_FACE ( 'NONE', ( #90, #210 ), #135, .T. ) ;
#280 = VECTOR ( 'NONE', #242, 1000.000000000000000 ) ;
#281 = EDGE_LOOP ( 'NONE', ( #206, #235 ) ) ;
ENDSEC;
END-ISO-10303-21;
